tabs cymraeg

Trafod y sîn, adolygiadau gigs, CDs newydd ac ati

Cymedrolwyr: Mihangel Macintosh, Rhys Llwyd

Rheolau’r seiat
Trafod y sîn, adolygiadau gigs, CDs newydd ayb. Mae seiat arbennig ar gyfer hysbysebu gigs. Pwyswch yma i ddarllen canllawiau cyffredinol maes-e.

Postiogan Dr Gonzo » Gwe 06 Ion 2006 5:24 pm

:wps: Mond Tabs Derwyddon Dr Gonzo fi'n wybod :wps:

www a sex cells gan y poppies...rhoi hwnna arno rhywbryd pam genai fynadd :lol:
http://www.bbc.co.uk/cymru/radiocymru/c ... onzo.shtml

[Delwedd wedi'i ddileu gan weinyddwr. Darllen y canllawiau.]
Rhithffurf defnyddiwr
Dr Gonzo
Defnyddiwr Efydd
Defnyddiwr Efydd
 
Negeseuon: 271
Ymunwyd: Gwe 01 Gor 2005 10:01 am
Lleoliad: Clamberis

Postiogan rhy ddiog i cofio fy enw » Sad 07 Ion 2006 1:58 am

gwyliwch ne fydd y gyfraith yn cau lawr bob gwefan tab erioed achos bod o am ddim. fel maent wedi gwneud i mxtabs.net a mwy o gwefanau tabs eraill. bastads
Rhithffurf defnyddiwr
rhy ddiog i cofio fy enw
Defnyddiwr Aur
Defnyddiwr Aur
 
Negeseuon: 2066
Ymunwyd: Llun 26 Gor 2004 9:35 pm
Lleoliad: Pen Llyn

Postiogan Dewi Bins » Llun 13 Chw 2006 8:44 pm

Leusa a ddywedodd:wedi ffendio hon wrth chwilio am gords - http://www.superfurry.org/tab.php
Ma'r rhai diweddara yno hefyd, sy'n wych [caneuon oddiar phantom]


da wan
Delwedd
Rhithffurf defnyddiwr
Dewi Bins
Defnyddiwr Efydd
Defnyddiwr Efydd
 
Negeseuon: 309
Ymunwyd: Iau 29 Rhag 2005 9:57 pm
Lleoliad: Porthmadog

Tabs

Postiogan Aled Lewis Roberts » Llun 08 Mai 2006 6:20 pm

Dwnim os dwin gofyn wbath rhy uchelgieshol :lol: ond sa rywun n gwbo tabs (neu gwbo lle y mae'r tabs ar y we) i 'Breuddwyd Roc a Rol' gan Edward H??? swn in LYFIO gwbo sud iw chwara!!!
"Mae pobl tew yn anoddach i'w herwgipio"
Aled Lewis Roberts
Defnyddiwr
Defnyddiwr
 
Negeseuon: 11
Ymunwyd: Llun 14 Tach 2005 6:35 pm
Lleoliad: LLANGERNYW!

Postiogan 3 bys mewn dwrnod » Sul 30 Gor 2006 11:55 am

Dr Gonzo, tara tabs derwyddon fynu ta, os os gin ti fynadd llu. Eni tecyrs ar Meic Stevens? dwin gwbod bo na lyfr cyfa ohonyn nhw'n rwla, ond diom yn siop yn unlla. Allan o brint debyg?

Rywun yn gwbod Trons dy Dad (efo twll yn y canol) ? Styff of lejynds. Da yn Tap o'r blaen.

Mahalo.
Cofiwch dim siwgwr trio cadw'n iach
Rhithffurf defnyddiwr
3 bys mewn dwrnod
Defnyddiwr
Defnyddiwr
 
Negeseuon: 29
Ymunwyd: Mer 12 Hyd 2005 7:29 pm
Lleoliad: Harlech

Postiogan Dr Gonzo » Maw 01 Awst 2006 10:12 am

Reit ta 'ogs...dyma Tabs i gan Derwyddon Dr Gonzooooo...
enw'r gan di Ska-ba-ba-bwt



Tabs Cymraeg - Derwyddon Dr Gonzo - Ska-ba-ba-bwt


e-------5--------5-------5------5--------3------3------3------3---------
B------5--------5-------5------5--------3------3------3------3---------
D-----5--------5-------5-------5-------3-------3----- 3-----3----------
G-------------------------------------------------------------------------
A-------------------------------------------------------------------------
E------------------------------------------------------------------------
X 7
e---5----5---5---5--------7---7---7---7------------------------------
B---6----6---6---6--------8---8---8---8------------------------------
D---7----7---7---7--------9---9---9---9-----------------------------
G----------------------------------------------------------------------
A----------------------------------------------------------------------
E-----------------------------------------------------------------------
Tempo yn codi...


e-------5--5--5--5----3--3--3- 3------5--5- 5--5-----7--7--7--7------
B------5--5--5--5-----3--3--3--3-----6--6--6--6-----8--8--8--8------
D-----5--5--5---5-----3--3--3--3-----7- 7--7--7-----9--9--9- 9------
G-------------------------------------------------------------------------
A-------------------------------------------------------------------------
E-------------------------------------------------------------------------

Hon tan diwedd y gan

Mwynhewch 8)
http://www.bbc.co.uk/cymru/radiocymru/c ... onzo.shtml

[Delwedd wedi'i ddileu gan weinyddwr. Darllen y canllawiau.]
Rhithffurf defnyddiwr
Dr Gonzo
Defnyddiwr Efydd
Defnyddiwr Efydd
 
Negeseuon: 271
Ymunwyd: Gwe 01 Gor 2005 10:01 am
Lleoliad: Clamberis

Postiogan dafs » Maw 01 Awst 2006 11:32 am

beth am

vanta - enfys bell

frizbee - Ti

Maharishi - Fflam neu Aiff Bywyd yn ei flaen?

diolch
dafs
Defnyddiwr
Defnyddiwr
 
Negeseuon: 40
Ymunwyd: Iau 15 Meh 2006 5:00 pm
Lleoliad: Aberaeron

Postiogan sion_llanclan » Maw 01 Awst 2006 12:07 pm

Dr Gonzo a ddywedodd:Reit ta 'ogs...dyma Tabs i gan Derwyddon Dr Gonzooooo...
enw'r gan di Ska-ba-ba-bwt



Tabs Cymraeg - Derwyddon Dr Gonzo - Ska-ba-ba-bwt


e-------5--------5-------5------5--------3------3------3------3---------
B------5--------5-------5------5--------3------3------3------3---------
D-----5--------5-------5-------5-------3-------3----- 3-----3----------
G-------------------------------------------------------------------------
A-------------------------------------------------------------------------
E------------------------------------------------------------------------
X 7
e---5----5---5---5--------7---7---7---7------------------------------
B---6----6---6---6--------8---8---8---8------------------------------
D---7----7---7---7--------9---9---9---9-----------------------------
G----------------------------------------------------------------------
A----------------------------------------------------------------------
E-----------------------------------------------------------------------
Tempo yn codi...


e-------5--5--5--5----3--3--3- 3------5--5- 5--5-----7--7--7--7------
B------5--5--5--5-----3--3--3--3-----6--6--6--6-----8--8--8--8------
D-----5--5--5---5-----3--3--3--3-----7- 7--7--7-----9--9--9- 9------
G-------------------------------------------------------------------------
A-------------------------------------------------------------------------
E-------------------------------------------------------------------------

Hon tan diwedd y gan

Mwynhewch 8)
Mi ffeindiais allan wrth ddysgu caneuon Derwyddon Dr Gonzo fod rhan fwyaf o'i caneuon ar Ffandango dim ond defnyddio un 7 cord trwy'r can i gyd a defnyddio riffs yna hefyd. Er hyn mae y caneuon yn dda!
Rhithffurf defnyddiwr
sion_llanclan
Defnyddiwr Efydd
Defnyddiwr Efydd
 
Negeseuon: 288
Ymunwyd: Maw 01 Tach 2005 4:22 pm
Lleoliad: 'Stiniog

Postiogan Rhodri » Mer 09 Mai 2007 3:46 pm

Dywydd.

Unrhyw syniad am gords Da Da Sur gin Mim Twm? A tab y riffsan bach banjo fyd - ar gyfer banjo os yn bosib? A tra mod i wrthi, unrhyw un arall efo ban-jo allan acw sa'n fodlon taro llwyth o ganeuon i fyny ar hwn - rolls a ballu yn fwy na chords. Diolch yn dalpe.
shifft y westral!
Rhodri
Defnyddiwr Efydd
Defnyddiwr Efydd
 
Negeseuon: 285
Ymunwyd: Iau 19 Rhag 2002 2:07 pm
Lleoliad: Put-Jelly

Re: tabs cymraeg

Postiogan Y Baswr » Iau 19 Meh 2008 9:40 am

Oes na rhywyn yn gwbod canol llonydd distaw gan steve eaves? Dwi di cal rhei darnau ond dwin meddyl bo rhai or cordia efo tonalities mwy diddorol na maj a minor.
Slappity, Poppity

Just another happy junkie
Rhithffurf defnyddiwr
Y Baswr
Defnyddiwr Efydd
Defnyddiwr Efydd
 
Negeseuon: 214
Ymunwyd: Maw 12 Gor 2005 9:44 am
Lleoliad: Lle Bynnag ga'i wely

NôlNesaf

Dychwelyd i Cerddoriaeth Gymraeg Gyfoes

Pwy sydd ar-lein

Defnyddwyr sy’n pori’r seiat hon: Dim defnyddwyr cofrestredig a 2 gwestai

cron